ISO-10303-21;
HEADER;
FILE_DESCRIPTION (( 'STEP AP203' ),
    '1' );
FILE_NAME ('cylinder.STEP',
    '2016-02-10T11:13:43',
    ( '' ),
    ( '' ),
    'SwSTEP 2.0',
    'SolidWorks 2014',
    '' );
FILE_SCHEMA (( 'CONFIG_CONTROL_DESIGN' ));
ENDSEC;

DATA;
#1 = DIRECTION ( 'NONE',  ( 1.000000000000000000, 0.0000000000000000000, 0.0000000000000000000 ) ) ;
#2 = DIRECTION ( 'NONE',  ( -0.0000000000000000000, -0.0000000000000000000, -1.000000000000000000 ) ) ;
#3 = ORGANIZATION ( 'UNSPECIFIED', 'UNSPECIFIED', '' ) ;
#4 = ORIENTED_EDGE ( 'NONE', *, *, #212, .T. ) ;
#5 = PERSON_AND_ORGANIZATION_ROLE ( 'design_supplier' ) ;
#6 = COORDINATED_UNIVERSAL_TIME_OFFSET ( 0, 0, .AHEAD. ) ;
#7 = VERTEX_POINT ( 'NONE', #216 ) ;
#8 = VERTEX_POINT ( 'NONE', #302 ) ;
#9 = EDGE_CURVE ( 'NONE', #60, #68, #283, .T. ) ;
#10 = EDGE_CURVE ( 'NONE', #236, #7, #237, .T. ) ;
#11 = PERSON_AND_ORGANIZATION ( #268, #3 ) ;
#12 = AXIS2_PLACEMENT_3D ( 'NONE', #196, #118, #42 ) ;
#13 = CC_DESIGN_APPROVAL ( #112, ( #273 ) ) ;
#14 = VECTOR ( 'NONE', #149, 1.000000000000000000 ) ;
#15 = CARTESIAN_POINT ( 'NONE',  ( 3.000000000000000000, -1.000000000000000000, 0.0000000000000000000 ) ) ;
#16 = ORIENTED_EDGE ( 'NONE', *, *, #308, .F. ) ;
#17 = EDGE_CURVE ( 'NONE', #138, #165, #126, .T. ) ;
#18 = CARTESIAN_POINT ( 'NONE',  ( -1.000000000000000000, -1.000000000000000000, 0.5000000000000000000 ) ) ;
#19 = AXIS2_PLACEMENT_3D ( 'NONE', #203, #146, #220 ) ;
#20 = APPROVAL_DATE_TIME ( #265, #112 ) ;
#21 = CALENDAR_DATE ( 2016, 10, 2 ) ;
#22 = DIRECTION ( 'NONE',  ( -0.0000000000000000000, -0.0000000000000000000, -1.000000000000000000 ) ) ;
#23 = SHAPE_DEFINITION_REPRESENTATION ( #213, #102 ) ;
#24 = CARTESIAN_POINT ( 'NONE',  ( -0.1000000000000000100, 1.224646799147353300E-017, 0.0000000000000000000 ) ) ;
#25 = FACE_OUTER_BOUND ( 'NONE', #158, .T. ) ;
#26 = ORIENTED_EDGE ( 'NONE', *, *, #77, .T. ) ;
#27 = MECHANICAL_CONTEXT ( 'NONE', #182, 'mechanical' ) ;
#28 = CC_DESIGN_PERSON_AND_ORGANIZATION_ASSIGNMENT ( #65, #290, ( #106 ) ) ;
#29 = DIRECTION ( 'NONE',  ( -0.0000000000000000000, 0.0000000000000000000, 1.000000000000000000 ) ) ;
#30 = CALENDAR_DATE ( 2016, 10, 2 ) ;
#31 = AXIS2_PLACEMENT_3D ( 'NONE', #250, #293, #205 ) ;
#32 = ORIENTED_EDGE ( 'NONE', *, *, #58, .T. ) ;
#33 = CC_DESIGN_APPROVAL ( #167, ( #106 ) ) ;
#34 = ORIENTED_EDGE ( 'NONE', *, *, #278, .F. ) ;
#35 = EDGE_CURVE ( 'NONE', #236, #68, #91, .T. ) ;
#36 = PERSON_AND_ORGANIZATION ( #268, #3 ) ;
#37 = ORIENTED_EDGE ( 'NONE', *, *, #222, .T. ) ;
#38 = ADVANCED_FACE ( 'NONE', ( #25 ), #217, .F. ) ;
#39 = EDGE_CURVE ( 'NONE', #184, #138, #57, .T. ) ;
#40 = DIRECTION ( 'NONE',  ( -1.000000000000000000, 0.0000000000000000000, 0.0000000000000000000 ) ) ;
#41 = CARTESIAN_POINT ( 'NONE',  ( 3.000000000000000000, 1.000000000000000000, 0.5000000000000000000 ) ) ;
#42 = DIRECTION ( 'NONE',  ( 1.000000000000000000, 0.0000000000000000000, 0.0000000000000000000 ) ) ;
#43 = EDGE_LOOP ( 'NONE', ( #110, #47, #26, #258 ) ) ;
#44 = DIRECTION ( 'NONE',  ( 1.000000000000000000, 0.0000000000000000000, 0.0000000000000000000 ) ) ;
#45 = LOCAL_TIME ( 11, 13, 43.00000000000000000, #119 ) ;
#46 = PLANE ( 'NONE',  #260 ) ;
#47 = ORIENTED_EDGE ( 'NONE', *, *, #178, .T. ) ;
#48 = APPROVAL_ROLE ( '' ) ;
#49 = AXIS2_PLACEMENT_3D ( 'NONE', #72, #70, #225 ) ;
#50 = CIRCLE ( 'NONE', #228, 0.1000000000000000100 ) ;
#51 = ORIENTED_EDGE ( 'NONE', *, *, #39, .F. ) ;
#52 = DIRECTION ( 'NONE',  ( 0.0000000000000000000, 0.0000000000000000000, 1.000000000000000000 ) ) ;
#53 = AXIS2_PLACEMENT_3D ( 'NONE', #202, #95, #44 ) ;
#54 = DIRECTION ( 'NONE',  ( -0.0000000000000000000, -0.0000000000000000000, -1.000000000000000000 ) ) ;
#55 = DIRECTION ( 'NONE',  ( 1.000000000000000000, 0.0000000000000000000, 0.0000000000000000000 ) ) ;
#56 = PERSON_AND_ORGANIZATION ( #268, #3 ) ;
#57 = LINE ( 'NONE', #177, #299 ) ;
#58 = EDGE_CURVE ( 'NONE', #135, #184, #187, .T. ) ;
#59 = VECTOR ( 'NONE', #180, 1.000000000000000000 ) ;
#60 = VERTEX_POINT ( 'NONE', #301 ) ;
#61 = ORIENTED_EDGE ( 'NONE', *, *, #83, .F. ) ;
#62 = ADVANCED_FACE ( 'NONE', ( #75 ), #223, .F. ) ;
#63 = VECTOR ( 'NONE', #191, 1.000000000000000000 ) ;
#64 = VERTEX_POINT ( 'NONE', #243 ) ;
#65 = PERSON_AND_ORGANIZATION ( #268, #3 ) ;
#66 = ORIENTED_EDGE ( 'NONE', *, *, #10, .F. ) ;
#67 = DIRECTION ( 'NONE',  ( 0.0000000000000000000, 0.0000000000000000000, 1.000000000000000000 ) ) ;
#68 = VERTEX_POINT ( 'NONE', #201 ) ;
#69 = CARTESIAN_POINT ( 'NONE',  ( -1.000000000000000000, 1.000000000000000000, 0.5000000000000000000 ) ) ;
#70 = DIRECTION ( 'NONE',  ( 0.0000000000000000000, 1.000000000000000000, 0.0000000000000000000 ) ) ;
#71 = LINE ( 'NONE', #18, #164 ) ;
#72 = CARTESIAN_POINT ( 'NONE',  ( -1.000000000000000000, -1.000000000000000000, 0.5000000000000000000 ) ) ;
#73 = CARTESIAN_POINT ( 'NONE',  ( 0.0000000000000000000, 0.0000000000000000000, 0.0000000000000000000 ) ) ;
#74 = APPROVAL_PERSON_ORGANIZATION ( #257, #282, #107 ) ;
#75 = FACE_OUTER_BOUND ( 'NONE', #199, .T. ) ;
#76 = APPROVAL_STATUS ( 'not_yet_approved' ) ;
#77 = EDGE_CURVE ( 'NONE', #135, #8, #276, .T. ) ;
#78 = DATE_AND_TIME ( #21, #86 ) ;
#79 = CC_DESIGN_PERSON_AND_ORGANIZATION_ASSIGNMENT ( #224, #272, ( #87 ) ) ;
#80 = AXIS2_PLACEMENT_3D ( 'NONE', #41, #40, #67 ) ;
#81 = VECTOR ( 'NONE', #93, 1.000000000000000000 ) ;
#82 = CIRCLE ( 'NONE', #19, 0.1000000000000000100 ) ;
#83 = EDGE_CURVE ( 'NONE', #68, #60, #82, .T. ) ;
#84 = DATE_AND_TIME ( #144, #96 ) ;
#85 = CARTESIAN_POINT ( 'NONE',  ( 0.0000000000000000000, 0.0000000000000000000, 0.0000000000000000000 ) ) ;
#86 = LOCAL_TIME ( 11, 13, 43.00000000000000000, #160 ) ;
#87 = PRODUCT_DEFINITION ( 'UNKNOWN', '', #106, #140 ) ;
#88 = ORIENTED_EDGE ( 'NONE', *, *, #10, .T. ) ;
#89 = COORDINATED_UNIVERSAL_TIME_OFFSET ( 0, 0, .AHEAD. ) ;
#90 = VECTOR ( 'NONE', #2, 1.000000000000000000 ) ;
#91 = LINE ( 'NONE', #197, #63 ) ;
#92 = CARTESIAN_POINT ( 'NONE',  ( -1.000000000000000000, 1.000000000000000000, 0.0000000000000000000 ) ) ;
#93 = DIRECTION ( 'NONE',  ( -0.0000000000000000000, -0.0000000000000000000, -1.000000000000000000 ) ) ;
#94 = AXIS2_PLACEMENT_3D ( 'NONE', #176, #307, #200 ) ;
#95 = DIRECTION ( 'NONE',  ( -0.0000000000000000000, 0.0000000000000000000, 1.000000000000000000 ) ) ;
#96 = LOCAL_TIME ( 11, 13, 43.00000000000000000, #211 ) ;
#97 = FACE_OUTER_BOUND ( 'NONE', #43, .T. ) ;
#98 = PRODUCT ( 'cylinder', 'cylinder', '', ( #27 ) ) ;
#99 = APPROVAL_STATUS ( 'not_yet_approved' ) ;
#100 = APPROVAL_ROLE ( '' ) ;
#101 = AXIS2_PLACEMENT_3D ( 'NONE', #156, #29, #270 ) ;
#102 = ADVANCED_BREP_SHAPE_REPRESENTATION ( 'cylinder', ( #253, #136 ), #141 ) ;
#103 = DIRECTION ( 'NONE',  ( 0.0000000000000000000, 0.0000000000000000000, 1.000000000000000000 ) ) ;
#104 = ORIENTED_EDGE ( 'NONE', *, *, #108, .F. ) ;
#105 = ORIENTED_EDGE ( 'NONE', *, *, #58, .F. ) ;
#106 = PRODUCT_DEFINITION_FORMATION_WITH_SPECIFIED_SOURCE ( 'ANY', '', #98, .NOT_KNOWN. ) ;
#107 = APPROVAL_ROLE ( '' ) ;
#108 = EDGE_CURVE ( 'NONE', #230, #186, #297, .T. ) ;
#109 = LOCAL_TIME ( 11, 13, 43.00000000000000000, #89 ) ;
#110 = ORIENTED_EDGE ( 'NONE', *, *, #108, .T. ) ;
#111 = CLOSED_SHELL ( 'NONE', ( #298, #143, #62, #38, #139, #192, #256, #166 ) ) ;
#112 = APPROVAL ( #99, 'UNSPECIFIED' ) ;
#113 = EDGE_LOOP ( 'NONE', ( #114, #16, #169, #142 ) ) ;
#114 = ORIENTED_EDGE ( 'NONE', *, *, #17, .T. ) ;
#115 = APPROVAL_PERSON_ORGANIZATION ( #36, #112, #100 ) ;
#116 = VECTOR ( 'NONE', #122, 1.000000000000000000 ) ;
#117 = ORIENTED_EDGE ( 'NONE', *, *, #178, .F. ) ;
#118 = DIRECTION ( 'NONE',  ( 0.0000000000000000000, 0.0000000000000000000, 1.000000000000000000 ) ) ;
#119 = COORDINATED_UNIVERSAL_TIME_OFFSET ( 0, 0, .AHEAD. ) ;
#120 = CYLINDRICAL_SURFACE ( 'NONE', #31, 0.1000000000000000100 ) ;
#121 = VECTOR ( 'NONE', #303, 1.000000000000000000 ) ;
#122 = DIRECTION ( 'NONE',  ( -0.0000000000000000000, 1.000000000000000000, -0.0000000000000000000 ) ) ;
#123 = AXIS2_PLACEMENT_3D ( 'NONE', #85, #281, #170 ) ;
#124 = PLANE ( 'NONE',  #53 ) ;
#125 = EDGE_CURVE ( 'NONE', #64, #184, #218, .T. ) ;
#126 = LINE ( 'NONE', #259, #121 ) ;
#127 = DIRECTION ( 'NONE',  ( -0.0000000000000000000, 1.000000000000000000, -0.0000000000000000000 ) ) ;
#128 = PLANE ( 'NONE',  #188 ) ;
#129 = APPLICATION_PROTOCOL_DEFINITION ( 'international standard', 'config_control_design', 1994, #182 ) ;
#130 = LINE ( 'NONE', #207, #261 ) ;
#131 = ORIENTED_EDGE ( 'NONE', *, *, #35, .F. ) ;
#132 = CARTESIAN_POINT ( 'NONE',  ( -1.000000000000000000, 1.000000000000000000, 0.5000000000000000000 ) ) ;
#133 = FACE_OUTER_BOUND ( 'NONE', #148, .T. ) ;
#134 = APPROVAL_STATUS ( 'not_yet_approved' ) ;
#135 = VERTEX_POINT ( 'NONE', #175 ) ;
#136 = AXIS2_PLACEMENT_3D ( 'NONE', #206, #52, #55 ) ;
#137 = FACE_OUTER_BOUND ( 'NONE', #294, .T. ) ;
#138 = VERTEX_POINT ( 'NONE', #284 ) ;
#139 = ADVANCED_FACE ( 'NONE', ( #287 ), #128, .F. ) ;
#140 = DESIGN_CONTEXT ( 'detailed design', #232, 'design' ) ;
#141 =( GEOMETRIC_REPRESENTATION_CONTEXT ( 3 ) GLOBAL_UNCERTAINTY_ASSIGNED_CONTEXT ( ( #181 ) ) GLOBAL_UNIT_ASSIGNED_CONTEXT ( ( #291, #267, #210 ) ) REPRESENTATION_CONTEXT ( 'NONE', 'WORKASPACE' ) );
#142 = ORIENTED_EDGE ( 'NONE', *, *, #295, .T. ) ;
#143 = ADVANCED_FACE ( 'NONE', ( #296 ), #46, .F. ) ;
#144 = CALENDAR_DATE ( 2016, 10, 2 ) ;
#145 = CYLINDRICAL_SURFACE ( 'NONE', #94, 0.1000000000000000100 ) ;
#146 = DIRECTION ( 'NONE',  ( 0.0000000000000000000, 0.0000000000000000000, 1.000000000000000000 ) ) ;
#147 = LINE ( 'NONE', #154, #194 ) ;
#148 = EDGE_LOOP ( 'NONE', ( #131, #300, #233, #190 ) ) ;
#149 = DIRECTION ( 'NONE',  ( 1.000000000000000000, 0.0000000000000000000, 0.0000000000000000000 ) ) ;
#150 = CC_DESIGN_DATE_AND_TIME_ASSIGNMENT ( #78, #179, ( #87 ) ) ;
#151 = DIRECTION ( 'NONE',  ( 1.000000000000000000, 0.0000000000000000000, -0.0000000000000000000 ) ) ;
#152 = LINE ( 'NONE', #251, #246 ) ;
#153 = CARTESIAN_POINT ( 'NONE',  ( -1.000000000000000000, -1.000000000000000000, 0.5000000000000000000 ) ) ;
#154 = CARTESIAN_POINT ( 'NONE',  ( -1.000000000000000000, 1.000000000000000000, 0.0000000000000000000 ) ) ;
#155 = DATE_TIME_ROLE ( 'classification_date' ) ;
#156 = CARTESIAN_POINT ( 'NONE',  ( 0.0000000000000000000, 0.0000000000000000000, 0.0000000000000000000 ) ) ;
#157 = VECTOR ( 'NONE', #22, 1.000000000000000000 ) ;
#158 = EDGE_LOOP ( 'NONE', ( #161, #195, #248, #32 ) ) ;
#159 = PERSON_AND_ORGANIZATION_ROLE ( 'design_owner' ) ;
#160 = COORDINATED_UNIVERSAL_TIME_OFFSET ( 0, 0, .AHEAD. ) ;
#161 = ORIENTED_EDGE ( 'NONE', *, *, #39, .T. ) ;
#162 = CC_DESIGN_PERSON_AND_ORGANIZATION_ASSIGNMENT ( #56, #5, ( #106 ) ) ;
#163 = CALENDAR_DATE ( 2016, 10, 2 ) ;
#164 = VECTOR ( 'NONE', #173, 1.000000000000000000 ) ;
#165 = VERTEX_POINT ( 'NONE', #92 ) ;
#166 = ADVANCED_FACE ( 'NONE', ( #133 ), #145, .F. ) ;
#167 = APPROVAL ( #134, 'UNSPECIFIED' ) ;
#168 = ORIENTED_EDGE ( 'NONE', *, *, #264, .T. ) ;
#169 = ORIENTED_EDGE ( 'NONE', *, *, #193, .F. ) ;
#170 = DIRECTION ( 'NONE',  ( 1.000000000000000000, 0.0000000000000000000, 0.0000000000000000000 ) ) ;
#171 = LINE ( 'NONE', #208, #59 ) ;
#172 = ORIENTED_EDGE ( 'NONE', *, *, #125, .F. ) ;
#173 = DIRECTION ( 'NONE',  ( 1.000000000000000000, 0.0000000000000000000, 0.0000000000000000000 ) ) ;
#174 = CC_DESIGN_SECURITY_CLASSIFICATION ( #273, ( #106 ) ) ;
#175 = CARTESIAN_POINT ( 'NONE',  ( 3.000000000000000000, -1.000000000000000000, 0.5000000000000000000 ) ) ;
#176 = CARTESIAN_POINT ( 'NONE',  ( 0.0000000000000000000, 0.0000000000000000000, 0.0000000000000000000 ) ) ;
#177 = CARTESIAN_POINT ( 'NONE',  ( 3.000000000000000000, 1.000000000000000000, 0.0000000000000000000 ) ) ;
#178 = EDGE_CURVE ( 'NONE', #186, #135, #71, .T. ) ;
#179 = DATE_TIME_ROLE ( 'creation_date' ) ;
#180 = DIRECTION ( 'NONE',  ( -0.0000000000000000000, -0.0000000000000000000, 1.000000000000000000 ) ) ;
#181 = UNCERTAINTY_MEASURE_WITH_UNIT (LENGTH_MEASURE( 1.000000000000000100E-005 ), #291, 'distance_accuracy_value', 'NONE');
#182 = APPLICATION_CONTEXT ( 'configuration controlled 3d designs of mechanical parts and assemblies' ) ;
#183 = CALENDAR_DATE ( 2016, 10, 2 ) ;
#184 = VERTEX_POINT ( 'NONE', #15 ) ;
#185 = CC_DESIGN_PERSON_AND_ORGANIZATION_ASSIGNMENT ( #234, #247, ( #273 ) ) ;
#186 = VERTEX_POINT ( 'NONE', #153 ) ;
#187 = LINE ( 'NONE', #262, #157 ) ;
#188 = AXIS2_PLACEMENT_3D ( 'NONE', #227, #285, #289 ) ;
#189 = APPROVAL_DATE_TIME ( #84, #167 ) ;
#190 = ORIENTED_EDGE ( 'NONE', *, *, #9, .T. ) ;
#191 = DIRECTION ( 'NONE',  ( -0.0000000000000000000, -0.0000000000000000000, 1.000000000000000000 ) ) ;
#192 = ADVANCED_FACE ( 'NONE', ( #238, #97 ), #124, .T. ) ;
#193 = EDGE_CURVE ( 'NONE', #8, #230, #130, .T. ) ;
#194 = VECTOR ( 'NONE', #229, 1.000000000000000000 ) ;
#195 = ORIENTED_EDGE ( 'NONE', *, *, #295, .F. ) ;
#196 = CARTESIAN_POINT ( 'NONE',  ( 0.0000000000000000000, 0.0000000000000000000, 0.5000000000000000000 ) ) ;
#197 = CARTESIAN_POINT ( 'NONE',  ( -0.1000000000000000100, 1.224646799147353300E-017, 0.0000000000000000000 ) ) ;
#198 = LOCAL_TIME ( 11, 13, 43.00000000000000000, #6 ) ;
#199 = EDGE_LOOP ( 'NONE', ( #271, #105, #117, #4 ) ) ;
#200 = DIRECTION ( 'NONE',  ( 1.000000000000000000, 0.0000000000000000000, 0.0000000000000000000 ) ) ;
#201 = CARTESIAN_POINT ( 'NONE',  ( -0.1000000000000000100, 1.224646799147353300E-017, 0.5000000000000000000 ) ) ;
#202 = CARTESIAN_POINT ( 'NONE',  ( 0.0000000000000000000, 0.0000000000000000000, 0.5000000000000000000 ) ) ;
#203 = CARTESIAN_POINT ( 'NONE',  ( 0.0000000000000000000, 0.0000000000000000000, 0.5000000000000000000 ) ) ;
#204 = FACE_BOUND ( 'NONE', #305, .T. ) ;
#205 = DIRECTION ( 'NONE',  ( 1.000000000000000000, 0.0000000000000000000, 0.0000000000000000000 ) ) ;
#206 = CARTESIAN_POINT ( 'NONE',  ( 0.0000000000000000000, 0.0000000000000000000, 0.0000000000000000000 ) ) ;
#207 = CARTESIAN_POINT ( 'NONE',  ( -1.000000000000000000, 1.000000000000000000, 0.5000000000000000000 ) ) ;
#208 = CARTESIAN_POINT ( 'NONE',  ( 0.1000000000000000100, 0.0000000000000000000, 0.0000000000000000000 ) ) ;
#209 = ORIENTED_EDGE ( 'NONE', *, *, #17, .F. ) ;
#210 =( NAMED_UNIT ( * ) SI_UNIT ( $, .STERADIAN. ) SOLID_ANGLE_UNIT ( ) );
#211 = COORDINATED_UNIVERSAL_TIME_OFFSET ( 0, 0, .AHEAD. ) ;
#212 = EDGE_CURVE ( 'NONE', #186, #64, #235, .T. ) ;
#213 = PRODUCT_DEFINITION_SHAPE ( 'NONE', 'NONE',  #87 ) ;
#214 = VECTOR ( 'NONE', #239, 1.000000000000000000 ) ;
#215 = CC_DESIGN_APPROVAL ( #282, ( #87 ) ) ;
#216 = CARTESIAN_POINT ( 'NONE',  ( 0.1000000000000000100, 0.0000000000000000000, 0.0000000000000000000 ) ) ;
#217 = PLANE ( 'NONE',  #80 ) ;
#218 = LINE ( 'NONE', #244, #14 ) ;
#219 = EDGE_LOOP ( 'NONE', ( #66, #255, #280, #34 ) ) ;
#220 = DIRECTION ( 'NONE',  ( 1.000000000000000000, 0.0000000000000000000, 0.0000000000000000000 ) ) ;
#221 = CARTESIAN_POINT ( 'NONE',  ( -1.000000000000000000, -1.000000000000000000, 0.5000000000000000000 ) ) ;
#222 = EDGE_CURVE ( 'NONE', #7, #236, #50, .T. ) ;
#223 = PLANE ( 'NONE',  #49 ) ;
#224 = PERSON_AND_ORGANIZATION ( #268, #3 ) ;
#225 = DIRECTION ( 'NONE',  ( 0.0000000000000000000, -0.0000000000000000000, 1.000000000000000000 ) ) ;
#226 = ORIENTED_EDGE ( 'NONE', *, *, #308, .T. ) ;
#227 = CARTESIAN_POINT ( 'NONE',  ( -1.000000000000000000, 1.000000000000000000, 0.5000000000000000000 ) ) ;
#228 = AXIS2_PLACEMENT_3D ( 'NONE', #73, #103, #1 ) ;
#229 = DIRECTION ( 'NONE',  ( 0.0000000000000000000, -1.000000000000000000, 0.0000000000000000000 ) ) ;
#230 = VERTEX_POINT ( 'NONE', #249 ) ;
#231 = PLANE ( 'NONE',  #101 ) ;
#232 = APPLICATION_CONTEXT ( 'configuration controlled 3d designs of mechanical parts and assemblies' ) ;
#233 = ORIENTED_EDGE ( 'NONE', *, *, #278, .T. ) ;
#234 = PERSON_AND_ORGANIZATION ( #268, #3 ) ;
#235 = LINE ( 'NONE', #221, #81 ) ;
#236 = VERTEX_POINT ( 'NONE', #24 ) ;
#237 = CIRCLE ( 'NONE', #123, 0.1000000000000000100 ) ;
#238 = FACE_BOUND ( 'NONE', #241, .T. ) ;
#239 = DIRECTION ( 'NONE',  ( 0.0000000000000000000, -1.000000000000000000, 0.0000000000000000000 ) ) ;
#240 = DATE_AND_TIME ( #163, #45 ) ;
#241 = EDGE_LOOP ( 'NONE', ( #277, #61 ) ) ;
#242 = EDGE_LOOP ( 'NONE', ( #168, #311, #104, #226 ) ) ;
#243 = CARTESIAN_POINT ( 'NONE',  ( -1.000000000000000000, -1.000000000000000000, 0.0000000000000000000 ) ) ;
#244 = CARTESIAN_POINT ( 'NONE',  ( -1.000000000000000000, -1.000000000000000000, 0.0000000000000000000 ) ) ;
#245 = SECURITY_CLASSIFICATION_LEVEL ( 'unclassified' ) ;
#246 = VECTOR ( 'NONE', #54, 1.000000000000000000 ) ;
#247 = PERSON_AND_ORGANIZATION_ROLE ( 'classification_officer' ) ;
#248 = ORIENTED_EDGE ( 'NONE', *, *, #77, .F. ) ;
#249 = CARTESIAN_POINT ( 'NONE',  ( -1.000000000000000000, 1.000000000000000000, 0.5000000000000000000 ) ) ;
#250 = CARTESIAN_POINT ( 'NONE',  ( 0.0000000000000000000, 0.0000000000000000000, 0.0000000000000000000 ) ) ;
#251 = CARTESIAN_POINT ( 'NONE',  ( 3.000000000000000000, 1.000000000000000000, 0.5000000000000000000 ) ) ;
#252 = ORIENTED_EDGE ( 'NONE', *, *, #264, .F. ) ;
#253 = MANIFOLD_SOLID_BREP ( 'Cut-Extrude1', #111 ) ;
#254 = CC_DESIGN_PERSON_AND_ORGANIZATION_ASSIGNMENT ( #275, #159, ( #98 ) ) ;
#255 = ORIENTED_EDGE ( 'NONE', *, *, #35, .T. ) ;
#256 = ADVANCED_FACE ( 'NONE', ( #204, #137 ), #231, .F. ) ;
#257 = PERSON_AND_ORGANIZATION ( #268, #3 ) ;
#258 = ORIENTED_EDGE ( 'NONE', *, *, #193, .T. ) ;
#259 = CARTESIAN_POINT ( 'NONE',  ( -1.000000000000000000, 1.000000000000000000, 0.0000000000000000000 ) ) ;
#260 = AXIS2_PLACEMENT_3D ( 'NONE', #306, #151, #309 ) ;
#261 = VECTOR ( 'NONE', #292, 1.000000000000000000 ) ;
#262 = CARTESIAN_POINT ( 'NONE',  ( 3.000000000000000000, -1.000000000000000000, 0.5000000000000000000 ) ) ;
#263 = FACE_OUTER_BOUND ( 'NONE', #219, .T. ) ;
#264 = EDGE_CURVE ( 'NONE', #165, #64, #147, .T. ) ;
#265 = DATE_AND_TIME ( #183, #109 ) ;
#266 = APPROVAL_PERSON_ORGANIZATION ( #11, #167, #48 ) ;
#267 =( NAMED_UNIT ( * ) PLANE_ANGLE_UNIT ( ) SI_UNIT ( $, .RADIAN. ) );
#268 = PERSON ( 'UNSPECIFIED', 'UNSPECIFIED', 'UNSPECIFIED', ('UNSPECIFIED'), ('UNSPECIFIED'), ('UNSPECIFIED') ) ;
#269 = APPLICATION_PROTOCOL_DEFINITION ( 'international standard', 'config_control_design', 1994, #232 ) ;
#270 = DIRECTION ( 'NONE',  ( 1.000000000000000000, 0.0000000000000000000, 0.0000000000000000000 ) ) ;
#271 = ORIENTED_EDGE ( 'NONE', *, *, #125, .T. ) ;
#272 = PERSON_AND_ORGANIZATION_ROLE ( 'creator' ) ;
#273 = SECURITY_CLASSIFICATION ( '', '', #245 ) ;
#274 = DATE_AND_TIME ( #30, #198 ) ;
#275 = PERSON_AND_ORGANIZATION ( #268, #3 ) ;
#276 = LINE ( 'NONE', #286, #116 ) ;
#277 = ORIENTED_EDGE ( 'NONE', *, *, #9, .F. ) ;
#278 = EDGE_CURVE ( 'NONE', #7, #60, #171, .T. ) ;
#279 = APPROVAL_DATE_TIME ( #274, #282 ) ;
#280 = ORIENTED_EDGE ( 'NONE', *, *, #83, .T. ) ;
#281 = DIRECTION ( 'NONE',  ( 0.0000000000000000000, 0.0000000000000000000, 1.000000000000000000 ) ) ;
#282 = APPROVAL ( #76, 'UNSPECIFIED' ) ;
#283 = CIRCLE ( 'NONE', #12, 0.1000000000000000100 ) ;
#284 = CARTESIAN_POINT ( 'NONE',  ( 3.000000000000000000, 1.000000000000000000, 0.0000000000000000000 ) ) ;
#285 = DIRECTION ( 'NONE',  ( 0.0000000000000000000, -1.000000000000000000, 0.0000000000000000000 ) ) ;
#286 = CARTESIAN_POINT ( 'NONE',  ( 3.000000000000000000, 1.000000000000000000, 0.5000000000000000000 ) ) ;
#287 = FACE_OUTER_BOUND ( 'NONE', #113, .T. ) ;
#288 = PRODUCT_RELATED_PRODUCT_CATEGORY ( 'detail', '', ( #98 ) ) ;
#289 = DIRECTION ( 'NONE',  ( 0.0000000000000000000, -0.0000000000000000000, -1.000000000000000000 ) ) ;
#290 = PERSON_AND_ORGANIZATION_ROLE ( 'creator' ) ;
#291 =( LENGTH_UNIT ( ) NAMED_UNIT ( * ) SI_UNIT ( $, .METRE. ) );
#292 = DIRECTION ( 'NONE',  ( -1.000000000000000000, -0.0000000000000000000, -0.0000000000000000000 ) ) ;
#293 = DIRECTION ( 'NONE',  ( -0.0000000000000000000, -0.0000000000000000000, 1.000000000000000000 ) ) ;
#294 = EDGE_LOOP ( 'NONE', ( #252, #209, #51, #172 ) ) ;
#295 = EDGE_CURVE ( 'NONE', #8, #138, #152, .T. ) ;
#296 = FACE_OUTER_BOUND ( 'NONE', #242, .T. ) ;
#297 = LINE ( 'NONE', #69, #214 ) ;
#298 = ADVANCED_FACE ( 'NONE', ( #263 ), #120, .F. ) ;
#299 = VECTOR ( 'NONE', #127, 1.000000000000000000 ) ;
#300 = ORIENTED_EDGE ( 'NONE', *, *, #222, .F. ) ;
#301 = CARTESIAN_POINT ( 'NONE',  ( 0.1000000000000000100, 0.0000000000000000000, 0.5000000000000000000 ) ) ;
#302 = CARTESIAN_POINT ( 'NONE',  ( 3.000000000000000000, 1.000000000000000000, 0.5000000000000000000 ) ) ;
#303 = DIRECTION ( 'NONE',  ( -1.000000000000000000, -0.0000000000000000000, -0.0000000000000000000 ) ) ;
#304 = LINE ( 'NONE', #132, #90 ) ;
#305 = EDGE_LOOP ( 'NONE', ( #37, #88 ) ) ;
#306 = CARTESIAN_POINT ( 'NONE',  ( -1.000000000000000000, 1.000000000000000000, 0.5000000000000000000 ) ) ;
#307 = DIRECTION ( 'NONE',  ( -0.0000000000000000000, -0.0000000000000000000, 1.000000000000000000 ) ) ;
#308 = EDGE_CURVE ( 'NONE', #230, #165, #304, .T. ) ;
#309 = DIRECTION ( 'NONE',  ( -0.0000000000000000000, 0.0000000000000000000, -1.000000000000000000 ) ) ;
#310 = CC_DESIGN_DATE_AND_TIME_ASSIGNMENT ( #240, #155, ( #273 ) ) ;
#311 = ORIENTED_EDGE ( 'NONE', *, *, #212, .F. ) ;
ENDSEC;
END-ISO-10303-21;
